ISO-10303-21;
HEADER;
FILE_DESCRIPTION (( 'STEP AP203' ),
    '1' );
FILE_NAME ('Q-QZWP-R4-25.4-894-M.STEP',
    '2020-12-23T01:28:32',
    ( '' ),
    ( '' ),
    'SwSTEP 2.0',
    'SolidWorks 2020',
    '' );
FILE_SCHEMA (( 'CONFIG_CONTROL_DESIGN' ));
ENDSEC;

DATA;
#1 = PRODUCT ( 'Q-QZWP-R4-25.4-894-M', 'Q-QZWP-R4-25.4-894-M', '', ( #79 ) ) ;
#2 = AXIS2_PLACEMENT_3D ( 'NONE', #137, #168, #88 ) ;
#3 = ORIENTED_EDGE ( 'NONE', *, *, #87, .F. ) ;
#4 =( NAMED_UNIT ( * ) PLANE_ANGLE_UNIT ( ) SI_UNIT ( $, .RADIAN. ) );
#5 = FACE_OUTER_BOUND ( 'NONE', #57, .T. ) ;
#6 = DIRECTION ( 'NONE',  ( -1.000000000000000000, -0.000000000000000000, -0.000000000000000000 ) ) ;
#7 = FACE_OUTER_BOUND ( 'NONE', #92, .T. ) ;
#8 = DIRECTION ( 'NONE',  ( 0.000000000000000000, 0.000000000000000000, 1.000000000000000000 ) ) ;
#9 = APPLICATION_PROTOCOL_DEFINITION ( 'international standard', 'config_control_design', 1994, #158 ) ;
#10 = CALENDAR_DATE ( 2020, 23, 12 ) ;
#11 = DATE_TIME_ROLE ( 'creation_date' ) ;
#12 = PERSON_AND_ORGANIZATION ( #56, #29 ) ;
#13 = CC_DESIGN_PERSON_AND_ORGANIZATION_ASSIGNMENT ( #107, #132, ( #18 ) ) ;
#14 = PRODUCT_DEFINITION_SHAPE ( 'NONE', 'NONE',  #162 ) ;
#15 = LOCAL_TIME ( 9, 28, 32.00000000000000000, #67 ) ;
#16 = CC_DESIGN_DATE_AND_TIME_ASSIGNMENT ( #130, #11, ( #162 ) ) ;
#17 = ORIENTED_EDGE ( 'NONE', *, *, #70, .T. ) ;
#18 = SECURITY_CLASSIFICATION ( '', '', #82 ) ;
#19 = CLOSED_SHELL ( 'NONE', ( #152, #46, #112, #27 ) ) ;
#20 = ORIENTED_EDGE ( 'NONE', *, *, #60, .F. ) ;
#21 = CYLINDRICAL_SURFACE ( 'NONE', #55, 15.00000000000000000 ) ;
#22 = ORIENTED_EDGE ( 'NONE', *, *, #166, .T. ) ;
#23 = DIRECTION ( 'NONE',  ( -0.000000000000000000, 0.000000000000000000, 1.000000000000000000 ) ) ;
#24 = APPROVAL_DATE_TIME ( #98, #44 ) ;
#25 = CALENDAR_DATE ( 2020, 23, 12 ) ;
#26 = CIRCLE ( 'NONE', #123, 15.00000000000000000 ) ;
#27 = ADVANCED_FACE ( 'NONE', ( #5 ), #101, .F. ) ;
#28 = APPROVAL ( #96, 'UNSPECIFIED' ) ;
#29 = ORGANIZATION ( 'UNSPECIFIED', 'UNSPECIFIED', '' ) ;
#30 = ORIENTED_EDGE ( 'NONE', *, *, #87, .T. ) ;
#31 = VERTEX_POINT ( 'NONE', #32 ) ;
#32 = CARTESIAN_POINT ( 'NONE',  ( 3.000000000000000000, 0.000000000000000000, 15.00000000000000000 ) ) ;
#33 = PRODUCT_DEFINITION_FORMATION_WITH_SPECIFIED_SOURCE ( 'ANY', '', #1, .NOT_KNOWN. ) ;
#34 = VECTOR ( 'NONE', #102, 1000.000000000000000 ) ;
#35 = ORIENTED_EDGE ( 'NONE', *, *, #166, .F. ) ;
#36 = DIRECTION ( 'NONE',  ( 0.000000000000000000, 0.000000000000000000, 1.000000000000000000 ) ) ;
#37 = ADVANCED_BREP_SHAPE_REPRESENTATION ( 'Q-QZWP-R4-25.4-894-M', ( #97, #109 ), #58 ) ;
#38 = DATE_TIME_ROLE ( 'classification_date' ) ;
#39 = DIRECTION ( 'NONE',  ( 1.000000000000000000, 0.000000000000000000, 0.000000000000000000 ) ) ;
#40 = DATE_AND_TIME ( #174, #171 ) ;
#41 = CC_DESIGN_APPROVAL ( #63, ( #33 ) ) ;
#42 = APPROVAL_DATE_TIME ( #40, #28 ) ;
#43 = AXIS2_PLACEMENT_3D ( 'NONE', #64, #140, #169 ) ;
#44 = APPROVAL ( #122, 'UNSPECIFIED' ) ;
#45 = DIRECTION ( 'NONE',  ( 0.000000000000000000, 0.000000000000000000, 1.000000000000000000 ) ) ;
#46 = ADVANCED_FACE ( 'NONE', ( #127 ), #50, .F. ) ;
#47 = DIRECTION ( 'NONE',  ( -1.000000000000000000, 0.000000000000000000, -0.000000000000000000 ) ) ;
#48 = CARTESIAN_POINT ( 'NONE',  ( -3.000000000000000000, 1.836970198721029589E-15, -15.00000000000000000 ) ) ;
#49 = CIRCLE ( 'NONE', #155, 15.00000000000000000 ) ;
#50 = PLANE ( 'NONE',  #120 ) ;
#51 = CARTESIAN_POINT ( 'NONE',  ( -3.000000000000000000, 0.000000000000000000, 0.000000000000000000 ) ) ;
#52 = DATE_AND_TIME ( #10, #119 ) ;
#53 = PERSON_AND_ORGANIZATION ( #56, #29 ) ;
#54 = COORDINATED_UNIVERSAL_TIME_OFFSET ( 8, 0, .AHEAD. ) ;
#55 = AXIS2_PLACEMENT_3D ( 'NONE', #153, #142, #90 ) ;
#56 = PERSON ( 'UNSPECIFIED', 'UNSPECIFIED', 'UNSPECIFIED', ('UNSPECIFIED'), ('UNSPECIFIED'), ('UNSPECIFIED') ) ;
#57 = EDGE_LOOP ( 'NONE', ( #134, #22 ) ) ;
#58 =( GEOMETRIC_REPRESENTATION_CONTEXT ( 3 ) GLOBAL_UNCERTAINTY_ASSIGNED_CONTEXT ( ( #68 ) ) GLOBAL_UNIT_ASSIGNED_CONTEXT ( ( #116, #4, #89 ) ) REPRESENTATION_CONTEXT ( 'NONE', 'WORKASPACE' ) );
#59 = LINE ( 'NONE', #126, #34 ) ;
#60 = EDGE_CURVE ( 'NONE', #103, #110, #49, .T. ) ;
#61 = CC_DESIGN_PERSON_AND_ORGANIZATION_ASSIGNMENT ( #80, #175, ( #1 ) ) ;
#62 = EDGE_LOOP ( 'NONE', ( #124, #136, #141, #35 ) ) ;
#63 = APPROVAL ( #143, 'UNSPECIFIED' ) ;
#64 = CARTESIAN_POINT ( 'NONE',  ( -3.000000000000000888, 12.69999999999999929, 0.000000000000000000 ) ) ;
#65 = CARTESIAN_POINT ( 'NONE',  ( -3.000000000000000000, 0.000000000000000000, 15.00000000000000000 ) ) ;
#66 = APPROVAL_PERSON_ORGANIZATION ( #118, #44, #144 ) ;
#67 = COORDINATED_UNIVERSAL_TIME_OFFSET ( 8, 0, .AHEAD. ) ;
#68 = UNCERTAINTY_MEASURE_WITH_UNIT (LENGTH_MEASURE( 1.000000000000000082E-05 ), #116, 'distance_accuracy_value', 'NONE');
#69 = CC_DESIGN_PERSON_AND_ORGANIZATION_ASSIGNMENT ( #94, #159, ( #162 ) ) ;
#70 = EDGE_CURVE ( 'NONE', #74, #110, #59, .T. ) ;
#71 = FACE_OUTER_BOUND ( 'NONE', #62, .T. ) ;
#72 = DIRECTION ( 'NONE',  ( -1.000000000000000000, -0.000000000000000000, -0.000000000000000000 ) ) ;
#73 = CARTESIAN_POINT ( 'NONE',  ( 3.000000000000000000, 0.000000000000000000, 0.000000000000000000 ) ) ;
#74 = VERTEX_POINT ( 'NONE', #104 ) ;
#75 = DIRECTION ( 'NONE',  ( -1.000000000000000000, -0.000000000000000000, -0.000000000000000000 ) ) ;
#76 = CC_DESIGN_PERSON_AND_ORGANIZATION_ASSIGNMENT ( #148, #83, ( #33 ) ) ;
#77 = CIRCLE ( 'NONE', #2, 15.00000000000000000 ) ;
#78 = APPROVAL_ROLE ( '' ) ;
#79 = MECHANICAL_CONTEXT ( 'NONE', #139, 'mechanical' ) ;
#80 = PERSON_AND_ORGANIZATION ( #56, #29 ) ;
#81 = CC_DESIGN_APPROVAL ( #44, ( #18 ) ) ;
#82 = SECURITY_CLASSIFICATION_LEVEL ( 'unclassified' ) ;
#83 = PERSON_AND_ORGANIZATION_ROLE ( 'design_supplier' ) ;
#84 = CC_DESIGN_PERSON_AND_ORGANIZATION_ASSIGNMENT ( #12, #117, ( #33 ) ) ;
#85 = ORIENTED_EDGE ( 'NONE', *, *, #146, .F. ) ;
#86 = AXIS2_PLACEMENT_3D ( 'NONE', #93, #111, #45 ) ;
#87 = EDGE_CURVE ( 'NONE', #31, #74, #26, .T. ) ;
#88 = DIRECTION ( 'NONE',  ( 0.000000000000000000, 0.000000000000000000, 1.000000000000000000 ) ) ;
#89 =( NAMED_UNIT ( * ) SI_UNIT ( $, .STERADIAN. ) SOLID_ANGLE_UNIT ( ) );
#90 = DIRECTION ( 'NONE',  ( 0.000000000000000000, 0.000000000000000000, 1.000000000000000000 ) ) ;
#91 = CARTESIAN_POINT ( 'NONE',  ( -1.614212418857619014, 0.000000000000000000, 15.00000000000000000 ) ) ;
#92 = EDGE_LOOP ( 'NONE', ( #30, #17, #20, #85 ) ) ;
#93 = CARTESIAN_POINT ( 'NONE',  ( -1.614212418857619014, 0.000000000000000000, 0.000000000000000000 ) ) ;
#94 = PERSON_AND_ORGANIZATION ( #56, #29 ) ;
#95 = PERSON_AND_ORGANIZATION ( #56, #29 ) ;
#96 = APPROVAL_STATUS ( 'not_yet_approved' ) ;
#97 = MANIFOLD_SOLID_BREP ( 'Ðý×', #19 ) ;
#98 = DATE_AND_TIME ( #173, #131 ) ;
#99 = CC_DESIGN_APPROVAL ( #28, ( #162 ) ) ;
#100 = APPROVAL_DATE_TIME ( #121, #63 ) ;
#101 = PLANE ( 'NONE',  #43 ) ;
#102 = DIRECTION ( 'NONE',  ( -1.000000000000000000, -0.000000000000000000, -0.000000000000000000 ) ) ;
#103 = VERTEX_POINT ( 'NONE', #65 ) ;
#104 = CARTESIAN_POINT ( 'NONE',  ( 3.000000000000000000, 1.836970198721029589E-15, -15.00000000000000000 ) ) ;
#105 = CARTESIAN_POINT ( 'NONE',  ( 0.000000000000000000, 0.000000000000000000, 0.000000000000000000 ) ) ;
#106 = COORDINATED_UNIVERSAL_TIME_OFFSET ( 8, 0, .AHEAD. ) ;
#107 = PERSON_AND_ORGANIZATION ( #56, #29 ) ;
#108 = APPROVAL_PERSON_ORGANIZATION ( #95, #28, #165 ) ;
#109 = AXIS2_PLACEMENT_3D ( 'NONE', #105, #164, #39 ) ;
#110 = VERTEX_POINT ( 'NONE', #48 ) ;
#111 = DIRECTION ( 'NONE',  ( -1.000000000000000000, -0.000000000000000000, -0.000000000000000000 ) ) ;
#112 = ADVANCED_FACE ( 'NONE', ( #71 ), #113, .T. ) ;
#113 = CYLINDRICAL_SURFACE ( 'NONE', #86, 15.00000000000000000 ) ;
#114 = LOCAL_TIME ( 9, 28, 32.00000000000000000, #129 ) ;
#115 = DIRECTION ( 'NONE',  ( 0.000000000000000000, 0.000000000000000000, 1.000000000000000000 ) ) ;
#116 =( LENGTH_UNIT ( ) NAMED_UNIT ( * ) SI_UNIT ( .MILLI., .METRE. ) );
#117 = PERSON_AND_ORGANIZATION_ROLE ( 'creator' ) ;
#118 = PERSON_AND_ORGANIZATION ( #56, #29 ) ;
#119 = LOCAL_TIME ( 9, 28, 32.00000000000000000, #160 ) ;
#120 = AXIS2_PLACEMENT_3D ( 'NONE', #157, #47, #23 ) ;
#121 = DATE_AND_TIME ( #25, #114 ) ;
#122 = APPROVAL_STATUS ( 'not_yet_approved' ) ;
#123 = AXIS2_PLACEMENT_3D ( 'NONE', #170, #6, #36 ) ;
#124 = ORIENTED_EDGE ( 'NONE', *, *, #70, .F. ) ;
#125 = APPROVAL_PERSON_ORGANIZATION ( #53, #63, #78 ) ;
#126 = CARTESIAN_POINT ( 'NONE',  ( -1.614212418857619014, 1.836970198721029589E-15, -15.00000000000000000 ) ) ;
#127 = FACE_OUTER_BOUND ( 'NONE', #138, .T. ) ;
#128 = CIRCLE ( 'NONE', #150, 15.00000000000000000 ) ;
#129 = COORDINATED_UNIVERSAL_TIME_OFFSET ( 8, 0, .AHEAD. ) ;
#130 = DATE_AND_TIME ( #145, #15 ) ;
#131 = LOCAL_TIME ( 9, 28, 32.00000000000000000, #54 ) ;
#132 = PERSON_AND_ORGANIZATION_ROLE ( 'classification_officer' ) ;
#133 = CC_DESIGN_SECURITY_CLASSIFICATION ( #18, ( #33 ) ) ;
#134 = ORIENTED_EDGE ( 'NONE', *, *, #60, .T. ) ;
#135 = VECTOR ( 'NONE', #72, 1000.000000000000000 ) ;
#136 = ORIENTED_EDGE ( 'NONE', *, *, #161, .T. ) ;
#137 = CARTESIAN_POINT ( 'NONE',  ( -3.000000000000000000, 0.000000000000000000, 0.000000000000000000 ) ) ;
#138 = EDGE_LOOP ( 'NONE', ( #3, #156 ) ) ;
#139 = APPLICATION_CONTEXT ( 'configuration controlled 3d designs of mechanical parts and assemblies' ) ;
#140 = DIRECTION ( 'NONE',  ( 1.000000000000000000, 0.000000000000000000, 0.000000000000000000 ) ) ;
#141 = ORIENTED_EDGE ( 'NONE', *, *, #146, .T. ) ;
#142 = DIRECTION ( 'NONE',  ( -1.000000000000000000, -0.000000000000000000, -0.000000000000000000 ) ) ;
#143 = APPROVAL_STATUS ( 'not_yet_approved' ) ;
#144 = APPROVAL_ROLE ( '' ) ;
#145 = CALENDAR_DATE ( 2020, 23, 12 ) ;
#146 = EDGE_CURVE ( 'NONE', #31, #103, #154, .T. ) ;
#147 = SHAPE_DEFINITION_REPRESENTATION ( #14, #37 ) ;
#148 = PERSON_AND_ORGANIZATION ( #56, #29 ) ;
#149 = DESIGN_CONTEXT ( 'detailed design', #158, 'design' ) ;
#150 = AXIS2_PLACEMENT_3D ( 'NONE', #73, #75, #8 ) ;
#151 = DIRECTION ( 'NONE',  ( -1.000000000000000000, -0.000000000000000000, -0.000000000000000000 ) ) ;
#152 = ADVANCED_FACE ( 'NONE', ( #7 ), #21, .T. ) ;
#153 = CARTESIAN_POINT ( 'NONE',  ( -1.614212418857619014, 0.000000000000000000, 0.000000000000000000 ) ) ;
#154 = LINE ( 'NONE', #91, #135 ) ;
#155 = AXIS2_PLACEMENT_3D ( 'NONE', #51, #151, #115 ) ;
#156 = ORIENTED_EDGE ( 'NONE', *, *, #161, .F. ) ;
#157 = CARTESIAN_POINT ( 'NONE',  ( 3.000000000000000888, 12.69999999999999929, 0.000000000000000000 ) ) ;
#158 = APPLICATION_CONTEXT ( 'configuration controlled 3d designs of mechanical parts and assemblies' ) ;
#159 = PERSON_AND_ORGANIZATION_ROLE ( 'creator' ) ;
#160 = COORDINATED_UNIVERSAL_TIME_OFFSET ( 8, 0, .AHEAD. ) ;
#161 = EDGE_CURVE ( 'NONE', #74, #31, #128, .T. ) ;
#162 = PRODUCT_DEFINITION ( 'UNKNOWN', '', #33, #149 ) ;
#163 = PRODUCT_RELATED_PRODUCT_CATEGORY ( 'detail', '', ( #1 ) ) ;
#164 = DIRECTION ( 'NONE',  ( 0.000000000000000000, 0.000000000000000000, 1.000000000000000000 ) ) ;
#165 = APPROVAL_ROLE ( '' ) ;
#166 = EDGE_CURVE ( 'NONE', #110, #103, #77, .T. ) ;
#167 = CC_DESIGN_DATE_AND_TIME_ASSIGNMENT ( #52, #38, ( #18 ) ) ;
#168 = DIRECTION ( 'NONE',  ( -1.000000000000000000, -0.000000000000000000, -0.000000000000000000 ) ) ;
#169 = DIRECTION ( 'NONE',  ( 0.000000000000000000, 0.000000000000000000, -1.000000000000000000 ) ) ;
#170 = CARTESIAN_POINT ( 'NONE',  ( 3.000000000000000000, 0.000000000000000000, 0.000000000000000000 ) ) ;
#171 = LOCAL_TIME ( 9, 28, 32.00000000000000000, #106 ) ;
#172 = APPLICATION_PROTOCOL_DEFINITION ( 'international standard', 'config_control_design', 1994, #139 ) ;
#173 = CALENDAR_DATE ( 2020, 23, 12 ) ;
#174 = CALENDAR_DATE ( 2020, 23, 12 ) ;
#175 = PERSON_AND_ORGANIZATION_ROLE ( 'design_owner' ) ;
ENDSEC;
END-ISO-10303-21;
